*
Добро пожаловать, Гость. Пожалуйста, войдите или зарегистрируйтесь.
Не получили письмо с кодом активации?
25 Сентября 2018, 10:47:34


Автор Тема: таблица основных видов колёс (размеры и вес)  (Прочитано 6589 раз)

0 Пользователей и 1 Гость просматривают эту тему.

Оффлайн SUBSTANCE

  • Модератор
  • *****
  • Сообщений: 16704
взято с АТВ форума

ITP
MUD LITE XXL
30x10-12 ------------------------ 15,0 кг.
30x12-12 ------------------------ 16,9 кг.
30x10-14 ------------------------ 15,5 кг.
30x12-14 ------------------------ 17,0 кг.
MUD LITE XL
25x8-12 -------------------- 10,9кг.
25x10-12 ------------------- 13,2кг.
25x12-12 ------------------- 11,8кг.
26x9-12 -------------------- 10,1кг.
26x10-12 ------------------- 10,2кг.
26x12-12 ------------------- 12,3кг.
27x9-12 --------------------- 11,4кг.
27x10-12 ------------------- 11,8кг.
27x12-12 ------------------- 12,7кг.
28x10-12 ------------------- 12,3кг.
28x12-12 ------------------- 13,6кг.
27x10-14 ------------------- 12,7кг.
27x12-14 ------------------- 14,1кг.
MUD LITE XTR
25x8-12 ---------------------- 10,3кг.
25x10-12 --------------------- 12,5кг.
26x9-12 ----------------------- 12,2кг.
26x11-12---------------------- 14.7кг.
27x9-12 ----------------------- 12,7кг.
27x11-12 ---------------------- 15.7кг.
27x9-14 ----------------------- 12,1кг
27x11-14 ---------------------- 15.1кг.
MUD LITE AT
24-8-12--------------------8.2кг.
25x8-12 -------------------- 6.8кг.
25x10-12 ------------------- 8.8кг.
MAYHEM
25-8-12 -------------------9.7кг.
25-10-12 -------------------10.4кг.
26-9-12    -------------------11.25кг.
26-11-12 -------------------12.15кг.
MEGA MAYHEM
27x9-12 --------------------- 13,7кг.
27x11-12 ------------------- 15,3кг.
28x9-12 ------------------- 14,7кг.
28x11-12 ------------------- 15,6кг.
27x9-14 ------------------- 12,8кг.
27x11-14 ------------------- 15кг.
28x9-14 ------------------- 13,5кг.
28x11-14 ------------------- 15,1кг.
589
25x8-12 ------------------------ 9,1кг.
25x10-12 ---------------------- 11,8кг.
26x9-12 ------------------------ 12,3кг.
26x12-12 ----------------------- 14,5кг.
27x9-12 ------------------------ 12,9кг.
27x11-12----------------------- 14,1кг.
28x9-12 ------------------------ 12,5кг.
28x11-12 ---------------------- 14,3кг.
27x9-14 ------------------------ 12,1кг.
27x11-14----------------------- 13,2кг.
Terracross
25x8-12 -------------------- 8,1кг.
25x10-12 ------------------- 10,8кг.
26x9-12 -------------------- 10кг.
26x11-12 ------------------- 12,2кг.
26x9-14 -------------------- 10.7кг.
26x11-14 ------------------- 13,9кг.
BajaCross
25x8-12 -------------------- 10,2кг.
25x10-12 ------------------- 12,2кг.
26x9-12 -------------------- 12.5кг.
26x11-12 ------------------- 15кг.
26x10-14 -------------------- 11.9кг.
26x11-14 ------------------- 12,9кг.
28x10-14 -------------------- 14.5кг.
TundraCross
25x9-12 -------------------- 8.5кг.
25x10-12 ------------------- 8.8кг.
HOLESHOT
SXS
25X9-12------------------- 10.2кг.
25-11-12------------------- 12.2кг.
ATR
25X8-12------------------- 8.1кг.
25X10-12------------------- 9.5кг.
UltraCross
26x10-15-------------------12,3кг.
Black water Evolution
25x8-12--------------------11,6кг.
25x11-12-------------------12,9кг.
26x9-12--------------------12,2кг.
26x11-12-------------------13,7кг.
27x9-12--------------------12,4кг.
27x11-12-------------------14кг.
27x9-14--------------------12,6кг.
27x11-14-------------------14,1кг.
900 XCT
27x9-12--------------------11,25кг.
27x11-12-------------------12,15кг.

-------------------------------------------------------------

Gorilla
Silverback
27x10-12 -------------------- 13,5кг.
27x12-12 ------------------- 17,5кг.
28x10-12 ------------------- 15.3кг.
28x12-12 ------------------- 18.9кг.
30x10-12 -------------------20кг
30x9-14 -------------------17.1кг
30x11-14 -------------------19.35кг
32x10-14-------------------23.4кг

-------------------------------------------------------------

Kenda
299 Bearclaw
25x8-12 ------------------- 8,2кг.
25x10-12 ------------------ 12,7кг.
25x12.5-12 ---------------- 14,1кг.
26x9-12 ------------------- 10,9кг.
26x12-12 ------------------ 16кг.
27x10-12 ----------------- 11,8кг.
27x12-12 ------------------ 16,4кг.
BEARCLAW HTR
25X8-12------------------9.45 кг.
25X10-12------------------ 11.4кг.
26X9-12------------------ 10.5кг.
26X11-12------------------13.9 кг.
27X9-12------------------ 11.2кг.
27X11-12------------------ 14.2кг.
26X9-14------------------11.25кг.
26X11-14------------------13.2 кг.
Executioner
25x8-12 ----------------- 9,1кг.
25x10-12----------------- 10,1кг.
26x10-12 ---------------- 15кг.
26x12-12 ---------------- 16кг.
27x10-12 ---------------- 16кг.
27x12-12 ---------------- 16,7кг.
BOUNTY HUNTER UTV
25X8-12   ----------------10кг.
25X10-12----------------12.8кг.
26X9-12----------------10.9кг.
26X11-12----------------13.2кг.
27X9-12----------------10.6кг.
27X11-12---------------- 13кг.
26X9-14 ----------------10.9кг.
26X11-14---------------- 13.3кг.

-------------------------------------------------------------------

Maxxis
Mud bug radial
25x8-12--------------------- 8.3 кг.
25x10-12--------------------- 10.0 кг.
26x9-12--------------------- 8.6 кг.
26x11-12--------------------- 11.0 кг.
26x9-14--------------------- 9.1 кг.
26x11-14--------------------- 11.2 кг.
Bighorn
25x8-12--------------------- 9.6 кг.
25x10-12--------------------- 11.7 кг.
26x9-12--------------------- 10.3 кг.
26x12-12--------------------- 13.7 кг.
27x9-12--------------------- 11.4 кг.
27x12-12--------------------- 14кг.
26x9-14--------------------- 10.9 кг.
26x11-14--------------------- 12.4 кг.
28x10-14---------------------12.6кг.
30x10-14---------------------14кг.
Bighorn 2.0
25х8-12 ---------------------8.2кг.
25х10-12 ---------------------10.2кг.
26х9-12   ---------------------9.54кг.
26х11-12 --------------------- 11.5кг.
26х11-14   ---------------------12.2кг.
28х10-12   ---------------------12.6кг.
28х9-14 ---------------------10.1кг.
28x11-14   ---------------------12.6кг.
Zilla
25X8-12--------------------- 6,6 кг.
25X8-12----------------------8,8 кг.
26X9-12----------------------9,2 кг.
27X9-12----------------------9,8 кг.
28X10-12-------------------11,8 кг.
26X9-14---------------------9,4 кг.
27X10-14-------------------10,4 кг.
28X9-14--------------------10,8 кг.
25X11-10---------------------8,8 кг.
25X10-12---------------------8,3 кг.
25X10-12---------------------9,6 кг.
26X11-12--------------------10,8 кг.
27X11-12---------------------11,0 кг.
28X12-12---------------------12,5 кг.
26X11-14---------------------10,8 кг.
27X12-14---------------------12,0 кг.
28X11-14---------------------12,1 кг.
Mudzilla
25x8-12---------------------11.2 кг.
25x10-12---------------------13.3 кг.
26x9-12---------------------12.6 кг.
26x12-12---------------------15.5 кг.
27x9-12---------------------12.8 кг.
27x12-12---------------------17.4 кг.
28x8-12---------------------13.2 кг.
28x10-12---------------------16.2 кг.
28x12-12---------------------18.7 кг.
30x9-14---------------------17.3 кг.
30x11-14---------------------20.0 кг.
Mudbug
25x8-12---------------------8.9 кг.
26x10-12---------------------11.1 кг.
27x8-12---------------------9.8 кг.
27x10-12---------------------10.6 кг.
28x10-12---------------------11.6 кг.
25x10-12---------------------10.3 кг.
26x12-12---------------------12.8 кг.
27x12-12---------------------12.8 кг.
28x12-12---------------------13.8 кг.
Vipr UTV
25х8-12--------------------- 9кг.
25х10-12 ---------------------10.8кг.   
26х9-12--------------------- 10.2кг.
26х11-12 ---------------------11.8кг.
27х9-14 --------------------- 11.7кг.
27х11-14--------------------- 13.4кг.
-------------------------------------------------------------------

Deestone
936, он же Dirt Devil, он же Mudcrusher, он же Дьявол:
26x10-12 --------------------- 12,5кг.
26x12-12 --------------------- 15,2кг.
27x10-12 --------------------- 13,3кг.
27x12-12 --------------------- 15,3кг.
28x10-12 ---------------------13.8кг.
28x12-12 ---------------------15.6кг.
932 Swamp Witch, она же Болотная Ведьма
26x10-12 --------------------- 12,3кг
26х12-12 --------------------- 15,1кг
27x10-12 --------------------- 13,6кг
27х12-12 --------------------- 15,0кг
28x10-12 --------------------- 14,5кг
28х12-12 --------------------- 17,1кг

-------------------------------------------------------------------

Interco
Swamp Lite
26X12- 12 ---------------------13.95кг
26X10-12---------------------12.15кг
26X9-12---------------------11.7кг
27X9- 12---------------------12.2кг
27X10-12--------------------13.05кг
27X12-12---------------------13.5кг
28X10-12---------------------17.1кг
29.5X10- 12---------------------18кг
27x9-14 --------------------- 12.15 кг
27x11-14--------------------- 13.95 кг
28x9-14 --------------------- 12.5 кг
28x11-14--------------------- 15.5 кг
Black mamba
27X10-12---------------------24.75кг
30X10-12---------------------29.7кг
30X10-14---------------------29.5кг
32.5X10-14---------------------31.5кг
MAMBA LITE
25X8-12---------------------13кг
25X10-12   ---------------------15.3кг
26X10-12   ---------------------17.5кг
26X12-12   ---------------------20.2кг
27X9-12--------------------- 17.55кг
27X11-12   ---------------------20.25кг   
30X8.50-12---------------------20.7кг
30X8.50-14---------------------20.7кг
TSL Vampire
26X9.5-12 ---------------------10.8кг
26X12-12 ---------------------14.4кг
27X10-12 ---------------------11.25кг
27X12-12--------------------- 14.6кг
28X10-12 ---------------------16.65кг
TSL VAMPIRE ASX
26X9.50-12 ---------------------12.2кг
26X13.00-12 ---------------------16.2кг
INTERFORCE ATV
30X8-12---------------------15.3кг
30X10-12---------------------18.4кг
27X7.75-14---------------------11.3кг
30X8-14--------------------- 14.8кг
30X10-14 ---------------------18.4кг
RADIAL REPTILE
25X8-12---------------------10кг
25X10-12---------------------12.2кг
26X9-12---------------------11.7кг
26X11-12---------------------13.5кг
27X9-12---------------------13кг
27X11-12---------------------14.85кг
26X12-14---------------------15.4кг
26X10-14---------------------13кг
27X9-14---------------------12.6кг
27X11-14---------------------15.3кг
-------------------------------------------------------------------

 High Lifter
OUTLAW
25x 9.5x12 --------------------- 11.57 кг
25x12 x12---------------------- 14.29 кг
26x10x12--------------------- 12.8кг
26x12x12--------------------- 15.7кг
27x9.5x12--------------------- 13.6кг
27x12x12 --------------------- 15.9кг
28x9.5x12---------------------- 14.2кг
28x10.5x12--------------------- 15.3кг
28x12.5x12--------------------- 17.4кг
29.5x10x12--------------------- 17.1кг
29.5x12x12 --------------------- 19.3кг
31x9.5x14--------------------- 17.5кг
31x11x14--------------------- 19.8кг
Outlaw 2
28 x 9.5 x 14 ---------------------- 17 кг
28 x 11 x 14 --------------------- - 20 кг
29.5 x 9.5 x 14 --------------------- - 20,32 кг
29.5x 11 x 14 ---------------------- 23,50 кг
Radial Outlaw
27 x 9.5 x 14 ---------------------- 15.8 кг
27 x 12 x 14 ---------------------- 17.2 кг
28 x 9.5 x 14 --------------------- - 16.8 кг
28 x 12 x 14 ---------------------- 17.7 кг
30 x 10 x 14 ---------------------- 20.4 кг
-------------------------------------------------------------------

STORMBRINGER
NOMO
26х9-12---------------------10.1 кг
26х10-12---------------------11.8 кг
26х12-12---------------------12.5 кг
27х9-12---------------------10,8 кг
27х10-12---------------------11,4 кг
27х12-12---------------------13,9 кг
27х9-14---------------------11.2 кг
27х11-14---------------------14.1 кг
STORM
26х9-12---------------------12.1 кг
26х12-12---------------------14 кг
27х9-12---------------------13.2 кг
27х12-12---------------------15,7 кг

-------------------------------------------------------------------
Carlisle
MUD WOLF
25x8-12--------------------- 10,6кг
25x11-12--------------------- 14 кг
26x9-12 ---------------------12,8 кг
26x12-12 ---------------------16,1 кг
27x9-12--------------------- 14,1 кг
27x12-12--------------------- 17,9 кг
MUD WOLF XL
26x9-14--------------------- 9,5 кг
26x11-14 ---------------------12,6 кг
ACT
23x7-12--------------------- 6,5 кг
23x10-12--------------------- 8,2 кг
25x8-12 ---------------------8,2 кг
25x11-12 ---------------------10,8 кг
26x8-12 ---------------------7,8 кг
26x10-12 ---------------------10,3 кг
ACT HD
25x8-12--------------------- 9,8 кг
25x11-12--------------------- 12,5 кг
26x9-12 ---------------------11,6 кг
26x11-12--------------------- 13,8 кг
27x9-12 ---------------------12 кг
27x11-12 ---------------------14,4 кг
BLACK ROCK
25x8-12--------------------- 8,1 кг
25x11-12 ---------------------9,2 кг
26x9-12--------------------- 8,6 кг
26x11-12 ---------------------10,5 кг
27x9-14 ---------------------10,3 кг
27x11-14 ---------------------12,1 кг
AT489 X/L
26x8-12--------------------- 7,8 кг
26x11-12 ---------------------11 кг
27x9-12--------------------- 8,6 кг
27x11-12--------------------- 11,2 кг
AT489 II
26x8-14 ---------------------7,5 кг
26x10-14---------------------9,8 кг
ALL TRAIL
25x8-12---------------------8,9 кг
25x10.5-12---------------------12 кг
-------------------------------------------------------------------
CST
Ancla
25x8-12--------------------- 10,2 кг
25x10-12---------------------10,8 кг
25x11-12 ---------------------10.8 кг
26x9-12--------------------- 11,2 кг
26x11-12 ---------------------11.4 кг
26x12-12 ---------------------11.6 кг
-------------------------------------------------------------------
SUN.F
A-001
21х7-10 --------------------- 5,5   кг
22х10-10 --------------------- 7,6   кг
A-003
19х7.-8 --------------------- 4,74   кг
19х9.5-8 --------------------- 5,9   кг
A-004
16х8-7 --------------------- 3,28   кг
19х7-8 --------------------- 3,86   кг
19х9.5-8 --------------------- 4,78   кг
21х8.-10 --------------------- 5   кг
22х10-10 --------------------- 6,98   кг
A-024
25х8-12 --------------------- 8,38   кг
25х10-12--------------------- 10,92   кг
A-027F
22"*7-10 --------------------- 5,6   кг
A-027R
22х10-10 --------------------- 8   кг
A-031F
20х6-10 --------------------- 4,2   кг
A-031R
18х10-8 --------------------- 5,3   кг
A-031R
22х11-9 --------------------- 5   кг
A-033
24х11-10 --------------------- 11   кг
25х8-12 --------------------- 9   кг
25х10-12--------------------- 11,2   кг
27х9-12--------------------- 12,2   кг
27х12-12 --------------------- 15   кг
27х9-14   --------------------- 13,6   кг
27х11-14 --------------------- 15,1   кг
A-043
26х9-14    --------------------- 11,2   кг
26х11-14 --------------------- 13,2   кг
« Последнее редактирование: 14 Мая 2013, 23:23:02 by SUBSTANCE »

 

Оффлайн ORREL

  • Член клуба
  • **
  • Сообщений: 9370
инфа 100%?

Оффлайн SUBSTANCE

  • Модератор
  • *****
  • Сообщений: 16704
инфа 100%?
можешь перевзвесить

Оффлайн feda

  • Член клуба
  • **
  • Сообщений: 7220
  • Bardus nuptula caussa penis fractura
поставь копирайт.
8-9II-OO5-ЗI-З2
Если Вы считаете эту нашу дискуссию мерением писюнами, то вынужден Вас огорчить. Ваш-то я что-то и не заметил даже, а свой не доставал еще.(с)

Оффлайн SUBSTANCE

  • Модератор
  • *****
  • Сообщений: 16704
поставь копирайт.
написал что взято с атв форума ... т.к. по списку всех авторов перечислять нет смысла

СТО4х4 - Техобслуживание, ремонт, тюнинг внедорожников
Диагностика, плановое ТО, ремонт, регулировка развал-схождения, запчасти, шиномонтаж, балансировка HAWEKA
тел. 965 20 19. Время работы: по будним дням с 12 до 20
Адрес: пр.Народного Ополчения 201 (Автоцентр "Лигово")

9261144.RU - Магазин запчастей и аксессуаров 4х4
Домкраты, лебедки, багажники, бамперы, диски, лесенки на дверь, усиленная подвеска, доп.свет и т.д. в наличии и под заказ
Магазин: тел. 926 11 44. Время работы: по будним дням с 12 до 19

Оффлайн feda

  • Член клуба
  • **
  • Сообщений: 7220
  • Bardus nuptula caussa penis fractura
написал что взято с атв форума ... т.к. по списку всех авторов перечислять нет смысла
уже хоошо, а то обидиццо кто, вонять начнет)))) потри мои писаки))))
8-9II-OO5-ЗI-З2
Если Вы считаете эту нашу дискуссию мерением писюнами, то вынужден Вас огорчить. Ваш-то я что-то и не заметил даже, а свой не доставал еще.(с)


Оффлайн Кока

  • Член клуба
  • **
  • Сообщений: 367
  • Скоро уже...
уже хоошо, а то обидиццо кто, вонять начнет)))) потри мои писаки))))

Вот источник: http://forum.atvclub.ru/showthread.php?67703-%D0%92%D0%B5%D1%81-%D1%80%D0%B5%D0%B7%D0%B8%D0%BD%D1%8B

Оффлайн SUBSTANCE

  • Модератор
  • *****
  • Сообщений: 16704
Вот источник: http://forum.atvclub.ru/showthread.php?67703-%D0%92%D0%B5%D1%81-%D1%80%D0%B5%D0%B7%D0%B8%D0%BD%D1%8B
это не источник ... а человек который собрал инфу по этому же форуму, внимательнее читайте

Оффлайн Кока

  • Член клуба
  • **
  • Сообщений: 367
  • Скоро уже...
это не источник ... а человек который собрал инфу по этому же форуму, внимательнее читайте

А разве Человек не может быть Источником полезной информации?  ;)

Оффлайн SUBSTANCE

  • Модератор
  • *****
  • Сообщений: 16704
А разве Человек не может быть Источником полезной информации?  ;)
facepalm

Оффлайн ANDRU

  • Член клуба
  • **
  • Сообщений: 5120
  • НИ СЫ
А кто знает где взять 20-21х9,5-11 R8
Только грязевую, а не щоссейку